ISO-10303-21;
HEADER;
FILE_DESCRIPTION (( 'STEP AP214' ),
    '1' );
FILE_NAME ('sample_part.STEP',
    '2026-02-13T13:58:54',
    ( '' ),
    ( '' ),
    'SwSTEP 2.0',
    'SolidWorks 2023',
    '' );
FILE_SCHEMA (( 'AUTOMOTIVE_DESIGN' ));
ENDSEC;

DATA;
#1 = CARTESIAN_POINT ( 'NONE',  ( 0.000000000000000000, 0.000000000000000000, 2.330000000000000071 ) ) ;
#2 = CIRCLE ( 'NONE', #192, 1.502315472251362083 ) ;
#3 = EDGE_LOOP ( 'NONE', ( #6, #161, #133, #28 ) ) ;
#4 = APPLICATION_CONTEXT ( 'automotive_design' ) ;
#5 = VERTEX_POINT ( 'NONE', #41 ) ;
#6 = ORIENTED_EDGE ( 'NONE', *, *, #135, .F. ) ;
#7 =( GEOMETRIC_REPRESENTATION_CONTEXT ( 3 ) GLOBAL_UNCERTAINTY_ASSIGNED_CONTEXT ( ( #27 ) ) GLOBAL_UNIT_ASSIGNED_CONTEXT ( ( #116, #34, #191 ) ) REPRESENTATION_CONTEXT ( 'NONE', 'WORKASPACE' ) );
#8 = EDGE_LOOP ( 'NONE', ( #25, #120 ) ) ;
#9 = EDGE_CURVE ( 'NONE', #68, #39, #194, .T. ) ;
#10 = CARTESIAN_POINT ( 'NONE',  ( 0.000000000000000000, 0.000000000000000000, 1.569999999999999618 ) ) ;
#11 = MANIFOLD_SOLID_BREP ( 'Cut-Extrude1', #181 ) ;
#12 = DIRECTION ( 'NONE',  ( 0.000000000000000000, 0.000000000000000000, 1.000000000000000000 ) ) ;
#13 = DIRECTION ( 'NONE',  ( 1.000000000000000000, 0.000000000000000000, -0.000000000000000000 ) ) ;
#14 = CARTESIAN_POINT ( 'NONE',  ( 0.000000000000000000, 0.000000000000000000, 0.000000000000000000 ) ) ;
#15 = DIRECTION ( 'NONE',  ( 0.000000000000000000, 0.000000000000000000, 1.000000000000000000 ) ) ;
#16 = VECTOR ( 'NONE', #46, 39.37007874015748143 ) ;
#17 = ADVANCED_BREP_SHAPE_REPRESENTATION ( 'sample_part', ( #11, #131 ), #7 ) ;
#18 = DIRECTION ( 'NONE',  ( 0.000000000000000000, 0.000000000000000000, 1.000000000000000000 ) ) ;
#19 = CIRCLE ( 'NONE', #138, 1.502315472251362083 ) ;
#20 = DIRECTION ( 'NONE',  ( 0.000000000000000000, 0.000000000000000000, -1.000000000000000000 ) ) ;
#21 = EDGE_CURVE ( 'NONE', #151, #103, #117, .T. ) ;
#22 = ORIENTED_EDGE ( 'NONE', *, *, #135, .T. ) ;
#23 = UNCERTAINTY_MEASURE_WITH_UNIT (LENGTH_MEASURE( 1.000000000000000082E-05 ), #94, 'distance_accuracy_value', 'NONE');
#24 = PRESENTATION_LAYER_ASSIGNMENT (  '', '', ( #67 ) ) ;
#25 = ORIENTED_EDGE ( 'NONE', *, *, #9, .F. ) ;
#26 = ORIENTED_EDGE ( 'NONE', *, *, #127, .T. ) ;
#27 = UNCERTAINTY_MEASURE_WITH_UNIT (LENGTH_MEASURE( 1.000000000000000082E-05 ), #116, 'distance_accuracy_value', 'NONE');
#28 = ORIENTED_EDGE ( 'NONE', *, *, #146, .F. ) ;
#29 = EDGE_CURVE ( 'NONE', #5, #104, #143, .T. ) ;
#30 =( NAMED_UNIT ( * ) SI_UNIT ( $, .STERADIAN. ) SOLID_ANGLE_UNIT ( ) );
#31 = DIRECTION ( 'NONE',  ( 0.000000000000000000, 0.000000000000000000, 1.000000000000000000 ) ) ;
#32 = FACE_OUTER_BOUND ( 'NONE', #8, .T. ) ;
#33 = DIRECTION ( 'NONE',  ( 1.000000000000000000, 0.000000000000000000, 0.000000000000000000 ) ) ;
#34 =( NAMED_UNIT ( * ) PLANE_ANGLE_UNIT ( ) SI_UNIT ( $, .RADIAN. ) );
#35 = DIRECTION ( 'NONE',  ( 1.000000000000000000, 0.000000000000000000, 0.000000000000000000 ) ) ;
#36 = DIRECTION ( 'NONE',  ( 1.000000000000000000, 0.000000000000000000, 0.000000000000000000 ) ) ;
#37 = ORIENTED_EDGE ( 'NONE', *, *, #29, .F. ) ;
#38 = AXIS2_PLACEMENT_3D ( 'NONE', #14, #75, #13 ) ;
#39 = VERTEX_POINT ( 'NONE', #185 ) ;
#40 = ORIENTED_EDGE ( 'NONE', *, *, #29, .T. ) ;
#41 = CARTESIAN_POINT ( 'NONE',  ( 1.502315472251362083, 1.839805834402174801E-16, 1.569999999999999618 ) ) ;
#42 = CARTESIAN_POINT ( 'NONE',  ( -1.502315472251362083, 0.000000000000000000, 0.000000000000000000 ) ) ;
#43 =( LENGTH_UNIT ( ) NAMED_UNIT ( * ) SI_UNIT ( $, .METRE. ) );
#44 = VECTOR ( 'NONE', #58, 39.37007874015748143 ) ;
#45 = FACE_BOUND ( 'NONE', #134, .T. ) ;
#46 = DIRECTION ( 'NONE',  ( 0.000000000000000000, 0.000000000000000000, -1.000000000000000000 ) ) ;
#47 = DIRECTION ( 'NONE',  ( -0.000000000000000000, -0.000000000000000000, -1.000000000000000000 ) ) ;
#48 = AXIS2_PLACEMENT_3D ( 'NONE', #10, #111, #60 ) ;
#49 = DIRECTION ( 'NONE',  ( -1.000000000000000000, 0.000000000000000000, 0.000000000000000000 ) ) ;
#50 = CYLINDRICAL_SURFACE ( 'NONE', #119, 0.4404763292520496032 ) ;
#51 = CIRCLE ( 'NONE', #167, 0.4404763292520496032 ) ;
#52 =( GEOMETRIC_REPRESENTATION_CONTEXT ( 3 ) GLOBAL_UNCERTAINTY_ASSIGNED_CONTEXT ( ( #23 ) ) GLOBAL_UNIT_ASSIGNED_CONTEXT ( ( #94, #165, #30 ) ) REPRESENTATION_CONTEXT ( 'NONE', 'WORKASPACE' ) );
#53 = ORIENTED_EDGE ( 'NONE', *, *, #62, .T. ) ;
#54 = ADVANCED_FACE ( 'NONE', ( #168 ), #87, .T. ) ;
#55 = VERTEX_POINT ( 'NONE', #59 ) ;
#56 = FACE_OUTER_BOUND ( 'NONE', #195, .T. ) ;
#57 = AXIS2_PLACEMENT_3D ( 'NONE', #187, #47, #49 ) ;
#58 = DIRECTION ( 'NONE',  ( -0.000000000000000000, -0.000000000000000000, -1.000000000000000000 ) ) ;
#59 = CARTESIAN_POINT ( 'NONE',  ( 0.4404763292520496032, 5.394279267186982554E-17, 0.000000000000000000 ) ) ;
#60 = DIRECTION ( 'NONE',  ( 1.000000000000000000, 0.000000000000000000, 0.000000000000000000 ) ) ;
#61 = CARTESIAN_POINT ( 'NONE',  ( 0.4404763292520496032, 5.394279267186982554E-17, 2.330000000000000071 ) ) ;
#62 = EDGE_CURVE ( 'NONE', #5, #39, #71, .T. ) ;
#63 = DIRECTION ( 'NONE',  ( 0.000000000000000000, 0.000000000000000000, 1.000000000000000000 ) ) ;
#64 = APPLICATION_PROTOCOL_DEFINITION ( 'draft international standard', 'automotive_design', 1998, #105 ) ;
#65 = LENGTH_MEASURE_WITH_UNIT ( LENGTH_MEASURE( 0.02539999999999999897 ), #97 );
#66 = DIRECTION ( 'NONE',  ( -1.000000000000000000, 0.000000000000000000, 0.000000000000000000 ) ) ;
#67 = STYLED_ITEM ( 'NONE', ( #92 ), #11 ) ;
#68 = VERTEX_POINT ( 'NONE', #42 ) ;
#69 = ORIENTED_EDGE ( 'NONE', *, *, #199, .F. ) ;
#70 = ORIENTED_EDGE ( 'NONE', *, *, #146, .T. ) ;
#71 = LINE ( 'NONE', #169, #44 ) ;
#72 = AXIS2_PLACEMENT_3D ( 'NONE', #108, #31, #140 ) ;
#73 = CARTESIAN_POINT ( 'NONE',  ( 0.000000000000000000, 0.000000000000000000, 1.569999999999999618 ) ) ;
#74 = LENGTH_MEASURE_WITH_UNIT ( LENGTH_MEASURE( 0.02539999999999999897 ), #43 );
#75 = DIRECTION ( 'NONE',  ( 0.000000000000000000, 0.000000000000000000, 1.000000000000000000 ) ) ;
#76 = ADVANCED_FACE ( 'NONE', ( #45, #32 ), #88, .F. ) ;
#77 = CARTESIAN_POINT ( 'NONE',  ( 0.000000000000000000, 0.000000000000000000, 0.000000000000000000 ) ) ;
#78 = FACE_OUTER_BOUND ( 'NONE', #3, .T. ) ;
#79 = CARTESIAN_POINT ( 'NONE',  ( 0.000000000000000000, 0.000000000000000000, 2.330000000000000071 ) ) ;
#80 = FACE_OUTER_BOUND ( 'NONE', #196, .T. ) ;
#81 = PRODUCT_CONTEXT ( 'NONE', #4, 'mechanical' ) ;
#82 = PRODUCT_DEFINITION_CONTEXT ( 'detailed design', #105, 'design' ) ;
#83 = EDGE_LOOP ( 'NONE', ( #121, #102, #178, #100 ) ) ;
#84 = COLOUR_RGB ( '',0.7921568627450980005, 0.8196078431372548767, 0.9333333333333333481 ) ;
#85 = EDGE_LOOP ( 'NONE', ( #149, #22 ) ) ;
#86 = AXIS2_PLACEMENT_3D ( 'NONE', #79, #204, #66 ) ;
#87 = CYLINDRICAL_SURFACE ( 'NONE', #198, 1.502315472251362083 ) ;
#88 = PLANE ( 'NONE',  #38 ) ;
#89 = AXIS2_PLACEMENT_3D ( 'NONE', #73, #180, #139 ) ;
#90 = CARTESIAN_POINT ( 'NONE',  ( 0.000000000000000000, 0.000000000000000000, 0.000000000000000000 ) ) ;
#91 = DIMENSIONAL_EXPONENTS ( 1.000000000000000000, 0.000000000000000000, 0.000000000000000000, 0.000000000000000000, 0.000000000000000000, 0.000000000000000000, 0.000000000000000000 ) ;
#92 = PRESENTATION_STYLE_ASSIGNMENT (( #154 ) ) ;
#93 = EDGE_CURVE ( 'NONE', #55, #132, #188, .T. ) ;
#94 =( CONVERSION_BASED_UNIT ( 'INCH', #74 ) LENGTH_UNIT ( ) NAMED_UNIT ( #91 ) );
#95 = PRODUCT_DEFINITION_FORMATION_WITH_SPECIFIED_SOURCE ( 'ANY', '', #184, .NOT_KNOWN. ) ;
#96 = APPLICATION_PROTOCOL_DEFINITION ( 'draft international standard', 'automotive_design', 1998, #4 ) ;
#97 =( LENGTH_UNIT ( ) NAMED_UNIT ( * ) SI_UNIT ( $, .METRE. ) );
#98 = DIRECTION ( 'NONE',  ( 0.000000000000000000, 0.000000000000000000, -1.000000000000000000 ) ) ;
#99 = ADVANCED_FACE ( 'NONE', ( #202, #56 ), #122, .T. ) ;
#100 = ORIENTED_EDGE ( 'NONE', *, *, #9, .T. ) ;
#101 = ORIENTED_EDGE ( 'NONE', *, *, #93, .F. ) ;
#102 = ORIENTED_EDGE ( 'NONE', *, *, #186, .F. ) ;
#103 = VERTEX_POINT ( 'NONE', #106 ) ;
#104 = VERTEX_POINT ( 'NONE', #166 ) ;
#105 = APPLICATION_CONTEXT ( 'automotive_design' ) ;
#106 = CARTESIAN_POINT ( 'NONE',  ( 0.4404763292520496032, 5.394279267186982554E-17, 1.569999999999999618 ) ) ;
#107 = PRODUCT_DEFINITION ( 'UNKNOWN', '', #95, #82 ) ;
#108 = CARTESIAN_POINT ( 'NONE',  ( 0.000000000000000000, 0.000000000000000000, 1.569999999999999618 ) ) ;
#109 = DIRECTION ( 'NONE',  ( -0.000000000000000000, -0.000000000000000000, -1.000000000000000000 ) ) ;
#110 = AXIS2_PLACEMENT_3D ( 'NONE', #126, #189, #36 ) ;
#111 = DIRECTION ( 'NONE',  ( -0.000000000000000000, -0.000000000000000000, -1.000000000000000000 ) ) ;
#112 = DIMENSIONAL_EXPONENTS ( 1.000000000000000000, 0.000000000000000000, 0.000000000000000000, 0.000000000000000000, 0.000000000000000000, 0.000000000000000000, 0.000000000000000000 ) ;
#113 = VECTOR ( 'NONE', #109, 39.37007874015748143 ) ;
#114 = AXIS2_PLACEMENT_3D ( 'NONE', #124, #15, #33 ) ;
#115 = CARTESIAN_POINT ( 'NONE',  ( 0.000000000000000000, 0.000000000000000000, 0.000000000000000000 ) ) ;
#116 =( CONVERSION_BASED_UNIT ( 'INCH', #65 ) LENGTH_UNIT ( ) NAMED_UNIT ( #112 ) );
#117 = CIRCLE ( 'NONE', #48, 0.4404763292520496032 ) ;
#118 = EDGE_CURVE ( 'NONE', #104, #68, #123, .T. ) ;
#119 = AXIS2_PLACEMENT_3D ( 'NONE', #1, #98, #130 ) ;
#120 = ORIENTED_EDGE ( 'NONE', *, *, #175, .F. ) ;
#121 = ORIENTED_EDGE ( 'NONE', *, *, #62, .F. ) ;
#122 = PLANE ( 'NONE',  #89 ) ;
#123 = LINE ( 'NONE', #137, #113 ) ;
#124 = CARTESIAN_POINT ( 'NONE',  ( 0.000000000000000000, 0.000000000000000000, 0.000000000000000000 ) ) ;
#125 = FILL_AREA_STYLE_COLOUR ( '', #84 ) ;
#126 = CARTESIAN_POINT ( 'NONE',  ( 0.000000000000000000, 0.000000000000000000, 1.569999999999999618 ) ) ;
#127 = EDGE_CURVE ( 'NONE', #132, #55, #51, .T. ) ;
#128 = CARTESIAN_POINT ( 'NONE',  ( 0.000000000000000000, 0.000000000000000000, 1.569999999999999618 ) ) ;
#129 = CYLINDRICAL_SURFACE ( 'NONE', #57, 1.502315472251362083 ) ;
#130 = DIRECTION ( 'NONE',  ( -1.000000000000000000, 0.000000000000000000, 0.000000000000000000 ) ) ;
#131 = AXIS2_PLACEMENT_3D ( 'NONE', #115, #18, #147 ) ;
#132 = VERTEX_POINT ( 'NONE', #158 ) ;
#133 = ORIENTED_EDGE ( 'NONE', *, *, #127, .F. ) ;
#134 = EDGE_LOOP ( 'NONE', ( #26, #163 ) ) ;
#135 = EDGE_CURVE ( 'NONE', #103, #151, #205, .T. ) ;
#136 = DIRECTION ( 'NONE',  ( 1.000000000000000000, 0.000000000000000000, 0.000000000000000000 ) ) ;
#137 = CARTESIAN_POINT ( 'NONE',  ( -1.502315472251362083, 0.000000000000000000, 1.569999999999999618 ) ) ;
#138 = AXIS2_PLACEMENT_3D ( 'NONE', #128, #148, #172 ) ;
#139 = DIRECTION ( 'NONE',  ( 1.000000000000000000, 0.000000000000000000, -0.000000000000000000 ) ) ;
#140 = DIRECTION ( 'NONE',  ( 1.000000000000000000, 0.000000000000000000, 0.000000000000000000 ) ) ;
#141 = PRODUCT_DEFINITION_SHAPE ( 'NONE', 'NONE',  #107 ) ;
#142 = FILL_AREA_STYLE ('',( #125 ) ) ;
#143 = CIRCLE ( 'NONE', #72, 1.502315472251362083 ) ;
#144 = CARTESIAN_POINT ( 'NONE',  ( -0.4404763292520496032, 0.000000000000000000, 2.330000000000000071 ) ) ;
#145 = CARTESIAN_POINT ( 'NONE',  ( -0.4404763292520496032, 0.000000000000000000, 1.569999999999999618 ) ) ;
#146 = EDGE_CURVE ( 'NONE', #151, #132, #190, .T. ) ;
#147 = DIRECTION ( 'NONE',  ( 1.000000000000000000, 0.000000000000000000, 0.000000000000000000 ) ) ;
#148 = DIRECTION ( 'NONE',  ( 0.000000000000000000, 0.000000000000000000, 1.000000000000000000 ) ) ;
#149 = ORIENTED_EDGE ( 'NONE', *, *, #21, .T. ) ;
#150 = ORIENTED_EDGE ( 'NONE', *, *, #175, .T. ) ;
#151 = VERTEX_POINT ( 'NONE', #145 ) ;
#152 = PRODUCT_RELATED_PRODUCT_CATEGORY ( 'part', '', ( #184 ) ) ;
#153 = CARTESIAN_POINT ( 'NONE',  ( 0.000000000000000000, 0.000000000000000000, 0.000000000000000000 ) ) ;
#154 = SURFACE_STYLE_USAGE ( .BOTH. , #183 ) ;
#155 = SURFACE_STYLE_FILL_AREA ( #142 ) ;
#156 = FACE_OUTER_BOUND ( 'NONE', #83, .T. ) ;
#157 = VECTOR ( 'NONE', #20, 39.37007874015748143 ) ;
#158 = CARTESIAN_POINT ( 'NONE',  ( -0.4404763292520496032, 0.000000000000000000, 0.000000000000000000 ) ) ;
#159 = ORIENTED_EDGE ( 'NONE', *, *, #21, .F. ) ;
#160 = ADVANCED_FACE ( 'NONE', ( #78 ), #50, .F. ) ;
#161 = ORIENTED_EDGE ( 'NONE', *, *, #199, .T. ) ;
#162 = ORIENTED_EDGE ( 'NONE', *, *, #186, .T. ) ;
#163 = ORIENTED_EDGE ( 'NONE', *, *, #93, .T. ) ;
#164 = MECHANICAL_DESIGN_GEOMETRIC_PRESENTATION_REPRESENTATION (  '', ( #67 ), #52 ) ;
#165 =( NAMED_UNIT ( * ) PLANE_ANGLE_UNIT ( ) SI_UNIT ( $, .RADIAN. ) );
#166 = CARTESIAN_POINT ( 'NONE',  ( -1.502315472251362083, 0.000000000000000000, 1.569999999999999618 ) ) ;
#167 = AXIS2_PLACEMENT_3D ( 'NONE', #90, #200, #35 ) ;
#168 = FACE_OUTER_BOUND ( 'NONE', #177, .T. ) ;
#169 = CARTESIAN_POINT ( 'NONE',  ( 1.502315472251362083, 1.839805834402174801E-16, 1.569999999999999618 ) ) ;
#170 = ADVANCED_FACE ( 'NONE', ( #80 ), #203, .F. ) ;
#171 = DIRECTION ( 'NONE',  ( 1.000000000000000000, 0.000000000000000000, 0.000000000000000000 ) ) ;
#172 = DIRECTION ( 'NONE',  ( 1.000000000000000000, 0.000000000000000000, 0.000000000000000000 ) ) ;
#173 = SHAPE_DEFINITION_REPRESENTATION ( #141, #17 ) ;
#174 = LINE ( 'NONE', #61, #16 ) ;
#175 = EDGE_CURVE ( 'NONE', #39, #68, #2, .T. ) ;
#176 = AXIS2_PLACEMENT_3D ( 'NONE', #153, #12, #136 ) ;
#177 = EDGE_LOOP ( 'NONE', ( #37, #53, #150, #179 ) ) ;
#178 = ORIENTED_EDGE ( 'NONE', *, *, #118, .T. ) ;
#179 = ORIENTED_EDGE ( 'NONE', *, *, #118, .F. ) ;
#180 = DIRECTION ( 'NONE',  ( 0.000000000000000000, 0.000000000000000000, 1.000000000000000000 ) ) ;
#181 = CLOSED_SHELL ( 'NONE', ( #160, #54, #193, #99, #76, #170 ) ) ;
#182 = DIRECTION ( 'NONE',  ( -1.000000000000000000, 0.000000000000000000, 0.000000000000000000 ) ) ;
#183 = SURFACE_SIDE_STYLE ('',( #155 ) ) ;
#184 = PRODUCT ( 'sample_part', 'sample_part', '', ( #81 ) ) ;
#185 = CARTESIAN_POINT ( 'NONE',  ( 1.502315472251362083, 1.839805834402174801E-16, 0.000000000000000000 ) ) ;
#186 = EDGE_CURVE ( 'NONE', #104, #5, #19, .T. ) ;
#187 = CARTESIAN_POINT ( 'NONE',  ( 0.000000000000000000, 0.000000000000000000, 1.569999999999999618 ) ) ;
#188 = CIRCLE ( 'NONE', #176, 0.4404763292520496032 ) ;
#189 = DIRECTION ( 'NONE',  ( -0.000000000000000000, -0.000000000000000000, -1.000000000000000000 ) ) ;
#190 = LINE ( 'NONE', #144, #157 ) ;
#191 =( NAMED_UNIT ( * ) SI_UNIT ( $, .STERADIAN. ) SOLID_ANGLE_UNIT ( ) );
#192 = AXIS2_PLACEMENT_3D ( 'NONE', #77, #63, #171 ) ;
#193 = ADVANCED_FACE ( 'NONE', ( #156 ), #129, .T. ) ;
#194 = CIRCLE ( 'NONE', #114, 1.502315472251362083 ) ;
#195 = EDGE_LOOP ( 'NONE', ( #162, #40 ) ) ;
#196 = EDGE_LOOP ( 'NONE', ( #69, #159, #70, #101 ) ) ;
#197 = DIRECTION ( 'NONE',  ( -0.000000000000000000, -0.000000000000000000, -1.000000000000000000 ) ) ;
#198 = AXIS2_PLACEMENT_3D ( 'NONE', #201, #197, #182 ) ;
#199 = EDGE_CURVE ( 'NONE', #103, #55, #174, .T. ) ;
#200 = DIRECTION ( 'NONE',  ( 0.000000000000000000, 0.000000000000000000, 1.000000000000000000 ) ) ;
#201 = CARTESIAN_POINT ( 'NONE',  ( 0.000000000000000000, 0.000000000000000000, 1.569999999999999618 ) ) ;
#202 = FACE_BOUND ( 'NONE', #85, .T. ) ;
#203 = CYLINDRICAL_SURFACE ( 'NONE', #86, 0.4404763292520496032 ) ;
#204 = DIRECTION ( 'NONE',  ( 0.000000000000000000, 0.000000000000000000, -1.000000000000000000 ) ) ;
#205 = CIRCLE ( 'NONE', #110, 0.4404763292520496032 ) ;
ENDSEC;
END-ISO-10303-21;
